Motorhead tabs...
                             Bang To Rights

                               Motorhead

Originally released on the "Iron Fist" album

Version 1.0
October 15th, 1997

Transcribed by Matt Javes (matt@redstart.demon.co.uk)
Corrected by Gus Siewert (ktulu@cs.mcgill.ca)

Visit Catch My Smoke - The Motorhead Tab Page
http://www.cs.mcgill.ca/~ktulu/motorhead

Tune down to Eb.

/ \ = slide up/down
~ = vibrato
. = palm mute

Main Riff 
e|------------------------|
B|------------------------|
G|------------------------|
D|-----5-7-------5--------|
A|-0-0-------5-7---7-3-5~-|
E|------------------------|

Verse
e|------------------------|
B|------------------------|
G|------------------------|
D|-----5-7-------5--------|
A|-0-0-------5-7---7-3-5~-|
E|------------------------|
   . .       . . . . . . 

Chorus
e|------------------------------------------------------------------|
B|------------------------------------------------------------------|
G|------------------------------------------------------------------|
D|-1212121212121212121212121212121212121212121212121212121212121212-|
A|-1010101010101010101010101010101010101010101010101010101010101010-|
E|------------------------------------------------------------------|

e|----------------------------------|
B|----------------------------------|
G|----------------------------------|
D|-99999999999999998888888877777777-|
A|-77777777777777776666666655555555-|
E|----------------------------------|

Solo Backing (+ Main Riff x4 during 1st solo)
e|-------------|-------------|-------------|---------|
B|-------------|-------------|-------------|---------|
G|-------------|-------------|-------------|---------|
D|-10101010----|-13131313----|-12121212----|-7777----|
A|-8-8-8-8-etc.|-11111111etc.|-10101010etc.|-5555etc.|
E|-------------|-------------|-------------|---------|

Coda (over Main Riff)
e|-------------------|
B|-/999999\-/999999\-|
G|-/999999\-/999999\-|
D|-------------------|
A|-------------------|
E|-------------------|



MF-B 1998-2017: при цитировании ссылка на сайт Das ist Motorhead обязательна.