Motorhead tabs...
Visit Catch My Smoke - The Motorhead Tab Page
http://www.cs.mcgill.ca/~ktulu/motorhead

                                Asylum Choir

                                 Motorhead

>From the March or Die album.

Tune down to Eb.

<5> = Artificial Harmonic
. = Palm Mute
~ = Vibrato
b = bend

Main Riff
e|------------------------------------|
B|------------------------------------|
G|------------------------------------|
D|---9--7-9--------<5>~---7-9---------|
A|---7--5-7-050575~-----7-5-7-0505750-|
E|-00--0------------------------------|
   ..  .

Verse
e|-------------------------------|
B|-------------------------------|
G|-------------------------------|
D|---9--9--7--9--9----9--9-7-----|
A|---7--7--5--7--7----7--7-5-----|
E|-00--0--0--0------00--0--------|
   ..  .  .  .      ..  .

Chorus
e|----------------------------------------------|
B|----------------------------------------------|
G|-------2----------2----------2----------2-----|
D|-----2---2------2---2------2---2------2---2---|
A|--0--------0----------------------------------|
E|-------------3--------3-2--------2-3--------3-|
   
Fill
e|---------------|
B|---------------|
G|-7b75----------|
D|-----75--------|
A|-------757-----|
E|---------5-----|

Bridge
e|---------------|
B|---------------|
G|---------------|
D|-9-99-99-97777-|
A|-7-77-77-75555-|
E|---------------|


-- 
Matt Javes              Everything above represents my opinion only. 
                                Except when I'm lying....

        matt@redstart.demon.co.uk 

                
                




MF-B 1998-2017: при цитировании ссылка на сайт Das ist Motorhead обязательна.