Motorhead tabs...
                                Assassin                             

                                Motorhead

Originally released on the "Snake Bite Love" album

Version 1.0
March 21st, 1998

Transcribed by Matt Javes (matt@redstart.demon.co.uk)

Visit Catch My Smoke - The Motorhead Tab Page
        http://www.cs.mcgill.ca/~ktulu/motorhead

Tuning: 6=Db, 5=Ab, 4=Db, 3=Gb, 2=Bb, 1=Eb

. = palm mute

Verse
e|-----------------|
B|-----------------|
G|-----------------|
D|-----------------|
A|-----------------|
E|-0-00-0-0-00-0-0-|
   . .. . . .. . .
You'll have to listen to the album to get the exact rhythm for this.

Pre-Chorus
e|-------------------------|
B|-------------------------|
G|-------------------------|
D|-------------------------|
A|-5-5535-553--5-5535-553--|
E|-5-5535-553--5-5535-553--|

Chorus
e|------------------------------------------|
B|------------------------------------------|
G|-4-------445-------554-------445-------55-|
D|-4-------445-------554-------445-------55-|
A|-2-------223-------332-------223-------33-|
E|------------------------------------------|

 cont..
e|-----------------------------------------------|
B|-----------------------------------------------|
G|-4-------445-------557--7--7-------777----7----|
D|-4-------445-------557--7--7-------777----7----|
A|-2-------223-------335--5--5-------555----5----|
E|-----------------------------------------------|

Bridge                    Bridge Ending (and Coda)
e|-----------------------|----------------------------|
B|-----------------------|----------------------------|
G|-----------------------|----------------------------|
D|-----------------------|-7776665554442-2------------|
A|-2-22-2-7-5-2-22-2-5-0-|-5554443332220-0-5554443332-|
E|-2-22-2-7-5-2-22-2-5-0-|-----------------5554443332-|



MF-B 1998-2017: при цитировании ссылка на сайт Das ist Motorhead обязательна.