Motorhead tabs...
Visit Catch My Smoke - The Motorhead Tab Page
http://www.cs.mcgill.ca/~ktulu/motorhead

                                  America

                                 Motorhead

>From the Ironfist album.

Tune down to Eb.

Chords
e|--------------------|
B|--------------------|
G|--------------------|
D|-----------7--9--11-|
A|--5--7--9--5--7--9--|
E|--3--5--7-----------|
    G  A  B  D  E  F#

Main Riff
e|-------------------------|
B|-------------------------|
G|-------------------------|
D|-----5---5-------5---7---|
A|-5777-7---75-5777-7--5---|
E|-------------------------|

Chorus (one guitar plays riffs, other plays chords above)
   E   E   E   E   E   E   E   E    B   B   B   B   B   B   B   B
e|--------------------------------|--------------------------------|
B|--------------------------------|--------------------------------|
G|--------------------------------|--------------------------------|
D|-----5-------5-------5-------5--|--------------------------------|
A|-5777-7--5777-7--5777-7--5777-7-|-----5-------5-------5-------5--|
E|--------------------------------|-5777-7--5777-7--5777-7--5777-7-|
   
   E   E   E   E   E   E   E   E    B   B   B   B   A   A   A   A
e|--------------------------------|--------------------------------|
B|--------------------------------|--------------------------------|
G|--------------------------------|--------------------------------|
D|-----5-------5-------5-------5--|--------------------------------|
A|-5777-7--5777-7--5777-7--5777-7-|-----5-------5---7---7---7---7--|
E|--------------------------------|-5777-7--5777-7--5---5---5---5--|

Solo Backing (see chords diagram at top)
fig 1 (x4) A   A   AAAAAAAAG   G   GGGGGGGG
fig 2 (x3) D   D   DDDDDDDDE   E   EEEEEEEE
fig 3 (x1) D   D   DDDDDDDDE   E   F#F#F#F#F#F#F#F#

-- 
Matt Javes              Everything above represents my opinion only. 
                                Except when I'm lying....

        matt@redstart.demon.co.uk 

                
                




MF-B 1998-2017: при цитировании ссылка на сайт Das ist Motorhead обязательна.