Motorhead tabs...
Visit Catch My Smoke - The Motorhead Tab Page
http://www.cs.mcgill.ca/~ktulu/motorhead

                                All the Aces

                                 Motorhead

>From the Bomber album

Tune down to Eb.

Intro
e|---------------------|
B|---------------------|
G|---------------------|
D|-----12--------12-12-|
A|-----10--------10-10-|
E|-0000-----0-000------|
   ....     . ...

Verse
e|-----------------|
B|-----------------|
G|-----------------|
D|-----5-----------|
A|-5777--777777--5-|
E|-------------57--|
   ..... .........

Pre-chorus
e|------------|
B|------------|
G|------------|
D|--------4---|
A|-4-4-4-42---|
E|-2-2-2-2----|

Chorus
e|------------------------------------------------------------------|
B|------------------------------------------------------------------|
G|------------------------------------------------------------------|
D|---------------------------------77777777777777777777777777777777-|
A|-7777777777777777999999999999999955555555555555555555555555555555-|
E|-55555555555555557777777777777777---------------------------------|

Solo Backing
e|----------------------------------|
B|----------------------------------|
G|----------------------------------|
D|-9999999999999-7------------------|
A|-7777777777777-5-9999999999999999-|
E|-----------------7777777777777777-|

-- 
Matt Javes              Everything above represents my opinion only. 
                                Except when I'm lying....

        matt@redstart.demon.co.uk 

                
                





Рекомендуем посетить сайты партнеров:

Реклама на сайте
Реклама Для вас tecnoblock со скидками, в любое время.

MF-B 1998-2017: при цитировании ссылка на сайт Das ist Motorhead обязательна.