Motorhead tabs...

                             All Gone To Hell

                                Motorhead

>From the "Sacrifice" album.

Transcribed by Matt Javes (matt@redstart.demon.co.uk)

Version 1.0
August 17th, 1997

Visit Catch My Smoke - The Motorhead Tab Page
http://www.cs.mcgill.ca/~ktulu/motorhead

Tune down to Eb.

/\ = slide up/down
. = palm mute

Intro (with verse riff in background) x2
e|--------------------------------------------------------|
B|--------------------------------------------------------|
G|--------------------------------------------------------|
D|-3/4-2--2-2--2-3/4-2--2-2--2-3/4-5----------------------|
A|-3/4-2--2-2--2-3/4-2--2-2--2-3/4-5----------------------|
E|--------------------------------------------------------|
          .    .        .    .

Verse
e|--------------------------------------------------------|
B|--------------------------------------------------------|
G|--------------------------------------------------------|
D|-3/4-2--2-2--2-3/4-2--2-2--2-3/4-2--2-2--2-2--2-2--2-2--|
A|-3/4-2--2-2--2-3/4-2--2-2--2-3/4-2--2-2--2-2--2-2--2-2--|
E|--------------------------------------------------------|
          .    .        .    .        .    .    .    .

Pre-Chorus
e|----------------------------------------------------------|
B|----------------------------------------------------------|
G|----------------------------------------------------------|
D|-3/4-2--2-2--2-3/4-2--2-2--2-3/4-2--2-2--2-2--------------|
A|-3/4-2--2-2--2-3/4-2--2-2--2-3/4-2--2-2--2-2--------3--5--|
E|----------------------------------------------3--5--------|
          .    .        .    .        .    .

Chorus (1st 2 bars)
e|---------------------------------|
B|---------------------------------|
G|---------------------------------|
D|---------77-7--------77-7--------|
A|-77-733-355-555-577-755-55-------|
E|-55-511-1----33-355-5----3-------|

Chorus (2nd 2 bars)
e|---------------------------------|
B|---------------------------------|
G|---------------------------------|
D|-----55-5----77-7----------------|
A|-77-733-355-555-577-733-35-------|
E|-55-5----33-3----55-511-13-------|
After last chorus, play this riff again twice with a fade out.

Solo Backing x5 (followed Intro riff x2)
e|---------------------------------------------------------|
B|---------------------------------------------------------|
G|---------------------------------------------------------|
D|---------------------------------------------------------|
A|-4--2-4--2-2-4-4-2-2-4-4-2-2-4--2-7--2-2-4-4-2-2-4-4-2-2-|
E|-2--0-2--0-0-2-2-0-0-2-2-0-0-2--0-5--0-0-2-2-0-0-2-2-0-0-|
           . . . . . . . . . .         . . . . . . . . . . 

-- 
Matt Javes              Everything above represents my opinion only. 
                                Except when I'm lying....

        matt@redstart.demon.co.uk 

                
                




MF-B 1998-2017: при цитировании ссылка на сайт Das ist Motorhead обязательна.