Motorhead tabs...

                               All For You

                                Motorhead

Originally released on the "Rock 'N' Roll" album

Version 1.0
March 8th, 1998

Transcribed by Matt Javes (matt@redstart.demon.co.uk)

Visit Catch My Smoke - The Motorhead Tab Page
http://www.cs.mcgill.ca/~ktulu/motorhead

Tune down to Eb (down half a step)

 .  = palm mute

Verse (Guitar)
e|------------------|
B|---8--7--5--7---5-|
G|---7--7--5--7---5-|
D|-00--0--0--0------|
A|------------------|
E|------------------|
   ..  .  .  .
Play this 4 times per line of Bass.


Verse (Bass)
G|------------------------------------------------------------------|
D|-00000000000000000000000000000000---------------------------------|
A|---------------------------------00000000000000000000000000000000-|
E|------------------------------------------------------------------|
   ................................................................

Chorus x4 (Bass plays root notes)
e|----------------------------------|
B|----------------------------------|
G|-12-------7-------9-------5-------|
D|-12-------7-------9-------5-------|
A|-10-------5-------7-------3-------|
E|----------------------------------|

Solo Backing (Bass strums root notes)
e|-----------------------------------------------------------------|
B|-----------------------------------------------------------------|
G|-9-------5-------9-------5-------9---------------9-------5-------|
D|-9-------5-------9-------5-------9-------7-------9-------5-------|
A|-7-------3-------7-------3-------7-------7-------7-------3-------|
E|-----------------------------------------5-----------------------|


                
                



MF-B 1998-2017: при цитировании ссылка на сайт Das ist Motorhead обязательна.